ISO-10303-21;
HEADER;
FILE_DESCRIPTION (( 'STEP AP214' ),
    '1' );
FILE_NAME ('FULLVAC JF1CF63.STEP',
    '2019-03-29T13:50:24',
    ( '' ),
    ( '' ),
    'SwSTEP 2.0',
    'SolidWorks 2017',
    '' );
FILE_SCHEMA (( 'AUTOMOTIVE_DESIGN' ));
ENDSEC;

DATA;
#1 = EDGE_LOOP ( 'NONE', ( #199 ) ) ;
#2 = CARTESIAN_POINT ( 'NONE',  ( -0.4999999984578941700, 0.0000000000000000000, 0.0000000000000000000 ) ) ;
#3 = AXIS2_PLACEMENT_3D ( 'NONE', #59, #152, #253 ) ;
#4 = CARTESIAN_POINT ( 'NONE',  ( 0.4999999998100140800, 0.0000000000000000000, 0.0000000000000000000 ) ) ;
#5 = PRODUCT_DEFINITION_FORMATION_WITH_SPECIFIED_SOURCE ( 'ANY', '', #102, .NOT_KNOWN. ) ;
#6 = CIRCLE ( 'NONE', #181, 37.81491470422046300 ) ;
#7 = DIRECTION ( 'NONE',  ( 0.0000000000000000000, 0.0000000000000000000, -1.000000000000000000 ) ) ;
#8 = DIRECTION ( 'NONE',  ( 0.0000000000000000000, 0.0000000000000000000, -1.000000000000000000 ) ) ;
#9 = ORIENTED_EDGE ( 'NONE', *, *, #270, .T. ) ;
#10 = CARTESIAN_POINT ( 'NONE',  ( -1.249999999999994700, 0.0000000000000000000, 0.0000000000000000000 ) ) ;
#11 = PLANE ( 'NONE',  #214 ) ;
#12 = CIRCLE ( 'NONE', #143, 41.35000000000000900 ) ;
#13 = AXIS2_PLACEMENT_3D ( 'NONE', #157, #47, #90 ) ;
#14 = DIRECTION ( 'NONE',  ( 0.0000000000000000000, 0.0000000000000000000, -1.000000000000000000 ) ) ;
#15 = EDGE_LOOP ( 'NONE', ( #158 ) ) ;
#16 = CONICAL_SURFACE ( 'NONE', #249, 38.44999999967094300, 0.5235987750000092900 ) ;
#17 = AXIS2_PLACEMENT_3D ( 'NONE', #213, #277, #208 ) ;
#18 = CONICAL_SURFACE ( 'NONE', #241, 41.22815815772588600, 1.239183767500000800 ) ;
#19 = ORIENTED_EDGE ( 'NONE', *, *, #22, .T. ) ;
#20 = UNCERTAINTY_MEASURE_WITH_UNIT (LENGTH_MEASURE( 1.000000000000000100E-005 ), #23, 'distance_accuracy_value', 'NONE');
#21 = CLOSED_SHELL ( 'NONE', ( #114, #284, #193, #262, #151, #48, #62, #205, #65, #139, #46, #257 ) ) ;
#22 = EDGE_CURVE ( 'NONE', #97, #97, #98, .T. ) ;
#23 =( LENGTH_UNIT ( ) NAMED_UNIT ( * ) SI_UNIT ( .MILLI., .METRE. ) );
#24 = FACE_OUTER_BOUND ( 'NONE', #95, .T. ) ;
#25 = FILL_AREA_STYLE ('',( #185 ) ) ;
#26 = ORIENTED_EDGE ( 'NONE', *, *, #169, .F. ) ;
#27 = EDGE_CURVE ( 'NONE', #87, #87, #170, .T. ) ;
#28 = SURFACE_SIDE_STYLE ('',( #232 ) ) ;
#29 = PLANE ( 'NONE',  #74 ) ;
#30 = CARTESIAN_POINT ( 'NONE',  ( 1.600000000000000100, 0.0000000000000000000, 0.0000000000000000000 ) ) ;
#31 = DIRECTION ( 'NONE',  ( 0.0000000000000000000, 0.0000000000000000000, -1.000000000000000000 ) ) ;
#32 = DIRECTION ( 'NONE',  ( 1.000000000000000000, 0.0000000000000000000, 0.0000000000000000000 ) ) ;
#33 = AXIS2_PLACEMENT_3D ( 'NONE', #133, #108, #279 ) ;
#34 = COLOUR_RGB ( '',0.3215686274509803600, 0.3215686274509803600, 0.3215686274509803600 ) ;
#35 = FACE_BOUND ( 'NONE', #219, .T. ) ;
#36 = VERTEX_POINT ( 'NONE', #115 ) ;
#37 = PRODUCT_DEFINITION_SHAPE ( 'NONE', 'NONE',  #68 ) ;
#38 = CONICAL_SURFACE ( 'NONE', #291, 41.22815815772588600, 1.239183767500000800 ) ;
#39 = AXIS2_PLACEMENT_3D ( 'NONE', #250, #178, #204 ) ;
#40 =( NAMED_UNIT ( * ) PLANE_ANGLE_UNIT ( ) SI_UNIT ( $, .RADIAN. ) );
#41 = APPLICATION_CONTEXT ( 'automotive_design' ) ;
#42 = DIRECTION ( 'NONE',  ( -1.000000000000000000, -0.0000000000000000000, 1.409885789980211900E-018 ) ) ;
#43 = VERTEX_POINT ( 'NONE', #66 ) ;
#44 = DIRECTION ( 'NONE',  ( 0.0000000000000000000, 0.0000000000000000000, 1.000000000000000000 ) ) ;
#45 =( LENGTH_UNIT ( ) NAMED_UNIT ( * ) SI_UNIT ( .MILLI., .METRE. ) );
#46 = ADVANCED_FACE ( 'NONE', ( #104, #135 ), #209, .T. ) ;
#47 = DIRECTION ( 'NONE',  ( 1.000000000000000000, 0.0000000000000000000, 0.0000000000000000000 ) ) ;
#48 = ADVANCED_FACE ( 'NONE', ( #243, #220 ), #229, .T. ) ;
#49 = CARTESIAN_POINT ( 'NONE',  ( -1.250000001542108200, 0.0000000000000000000, 0.0000000000000000000 ) ) ;
#50 = ORIENTED_EDGE ( 'NONE', *, *, #22, .F. ) ;
#51 = VERTEX_POINT ( 'NONE', #88 ) ;
#52 = EDGE_CURVE ( 'NONE', #36, #36, #126, .T. ) ;
#53 = EDGE_CURVE ( 'NONE', #171, #171, #6, .T. ) ;
#54 = CIRCLE ( 'NONE', #174, 41.35000000000000900 ) ;
#55 = EDGE_LOOP ( 'NONE', ( #186 ) ) ;
#56 = CARTESIAN_POINT ( 'NONE',  ( -1.249999999999998000, 41.28907907912846300, 0.0000000000000000000 ) ) ;
#57 = UNCERTAINTY_MEASURE_WITH_UNIT (LENGTH_MEASURE( 1.000000000000000100E-005 ), #237, 'distance_accuracy_value', 'NONE');
#58 =( NAMED_UNIT ( * ) PLANE_ANGLE_UNIT ( ) SI_UNIT ( $, .RADIAN. ) );
#59 = CARTESIAN_POINT ( 'NONE',  ( 1.250000001542108200, 0.0000000000000000000, 0.0000000000000000000 ) ) ;
#60 = FACE_OUTER_BOUND ( 'NONE', #81, .T. ) ;
#61 = AXIS2_PLACEMENT_3D ( 'NONE', #64, #286, #136 ) ;
#62 = ADVANCED_FACE ( 'NONE', ( #76, #206 ), #225, .T. ) ;
#63 =( NAMED_UNIT ( * ) SI_UNIT ( $, .STERADIAN. ) SOLID_ANGLE_UNIT ( ) );
#64 = CARTESIAN_POINT ( 'NONE',  ( 1.249999999999998900, 41.28907907912844200, 0.0000000000000000000 ) ) ;
#65 = ADVANCED_FACE ( 'NONE', ( #197, #92 ), #38, .F. ) ;
#66 = CARTESIAN_POINT ( 'NONE',  ( -1.600000000000000100, 0.0000000000000000000, -34.85000000000000100 ) ) ;
#67 = PRESENTATION_STYLE_ASSIGNMENT (( #179 ) ) ;
#68 = PRODUCT_DEFINITION ( 'UNKNOWN', '', #5, #287 ) ;
#69 = ORIENTED_EDGE ( 'NONE', *, *, #246, .T. ) ;
#70 = DIRECTION ( 'NONE',  ( -1.000000000000000000, 0.0000000000000000000, 0.0000000000000000000 ) ) ;
#71 = DIRECTION ( 'NONE',  ( 0.0000000000000000000, 0.0000000000000000000, 1.000000000000000000 ) ) ;
#72 = FACE_BOUND ( 'NONE', #167, .T. ) ;
#73 = EDGE_LOOP ( 'NONE', ( #125 ) ) ;
#74 = AXIS2_PLACEMENT_3D ( 'NONE', #189, #278, #7 ) ;
#75 = APPLICATION_PROTOCOL_DEFINITION ( 'draft international standard', 'automotive_design', 1998, #41 ) ;
#76 = FACE_BOUND ( 'NONE', #55, .T. ) ;
#77 =( GEOMETRIC_REPRESENTATION_CONTEXT ( 3 ) GLOBAL_UNCERTAINTY_ASSIGNED_CONTEXT ( ( #57 ) ) GLOBAL_UNIT_ASSIGNED_CONTEXT ( ( #237, #58, #63 ) ) REPRESENTATION_CONTEXT ( 'NONE', 'WORKASPACE' ) );
#78 = EDGE_LOOP ( 'NONE', ( #194 ) ) ;
#79 = EDGE_CURVE ( 'NONE', #110, #110, #124, .T. ) ;
#80 = CYLINDRICAL_SURFACE ( 'NONE', #17, 41.35000000000000900 ) ;
#81 = EDGE_LOOP ( 'NONE', ( #240 ) ) ;
#82 = FACE_OUTER_BOUND ( 'NONE', #242, .T. ) ;
#83 = APPLICATION_PROTOCOL_DEFINITION ( 'draft international standard', 'automotive_design', 1998, #156 ) ;
#84 = CARTESIAN_POINT ( 'NONE',  ( 1.600000000189991400, 0.0000000000000000000, -1.550874369513958100E-018 ) ) ;
#85 = CARTESIAN_POINT ( 'NONE',  ( -1.600000000189993700, 0.0000000000000000000, -37.81491470422045600 ) ) ;
#86 = SURFACE_STYLE_USAGE ( .BOTH. , #28 ) ;
#87 = VERTEX_POINT ( 'NONE', #259 ) ;
#88 = CARTESIAN_POINT ( 'NONE',  ( -1.249999999999994700, 0.0000000000000000000, -41.35000000000000900 ) ) ;
#89 =( NAMED_UNIT ( * ) SI_UNIT ( $, .STERADIAN. ) SOLID_ANGLE_UNIT ( ) );
#90 = DIRECTION ( 'NONE',  ( 0.0000000000000000000, 0.0000000000000000000, -1.000000000000000000 ) ) ;
#91 = DIRECTION ( 'NONE',  ( 0.0000000000000000000, 0.0000000000000000000, 1.000000000000000000 ) ) ;
#92 = FACE_OUTER_BOUND ( 'NONE', #282, .T. ) ;
#93 = DIRECTION ( 'NONE',  ( 1.000000000000000000, 0.0000000000000000000, 0.0000000000000000000 ) ) ;
#94 =( GEOMETRIC_REPRESENTATION_CONTEXT ( 3 ) GLOBAL_UNCERTAINTY_ASSIGNED_CONTEXT ( ( #212 ) ) GLOBAL_UNIT_ASSIGNED_CONTEXT ( ( #45, #40, #89 ) ) REPRESENTATION_CONTEXT ( 'NONE', 'WORKASPACE' ) );
#95 = EDGE_LOOP ( 'NONE', ( #128 ) ) ;
#96 = ADVANCED_BREP_SHAPE_REPRESENTATION ( 'FULLVAC JF1CF63', ( #272, #107 ), #77 ) ;
#97 = VERTEX_POINT ( 'NONE', #233 ) ;
#98 = CIRCLE ( 'NONE', #288, 39.05000000053100000 ) ;
#99 = EDGE_CURVE ( 'NONE', #147, #147, #12, .T. ) ;
#100 = PRESENTATION_LAYER_ASSIGNMENT (  '', '', ( #263 ) ) ;
#101 = VERTEX_POINT ( 'NONE', #231 ) ;
#102 = PRODUCT ( 'FULLVAC JF1CF63', 'FULLVAC JF1CF63', '', ( #153 ) ) ;
#103 = EDGE_LOOP ( 'NONE', ( #19 ) ) ;
#104 = FACE_BOUND ( 'NONE', #227, .T. ) ;
#105 = AXIS2_PLACEMENT_3D ( 'NONE', #30, #190, #164 ) ;
#106 = ORIENTED_EDGE ( 'NONE', *, *, #27, .T. ) ;
#107 = AXIS2_PLACEMENT_3D ( 'NONE', #275, #130, #228 ) ;
#108 = DIRECTION ( 'NONE',  ( 1.000000000000000000, -0.0000000000000000000, -1.409885789980211900E-018 ) ) ;
#109 = DIRECTION ( 'NONE',  ( -1.000000000000000000, 0.0000000000000000000, 1.409885789980211900E-018 ) ) ;
#110 = VERTEX_POINT ( 'NONE', #187 ) ;
#111 =( NAMED_UNIT ( * ) PLANE_ANGLE_UNIT ( ) SI_UNIT ( $, .RADIAN. ) );
#112 = DIRECTION ( 'NONE',  ( -1.000000000000000000, 0.0000000000000000000, 0.0000000000000000000 ) ) ;
#113 = EDGE_LOOP ( 'NONE', ( #234 ) ) ;
#114 = ADVANCED_FACE ( 'NONE', ( #238, #168 ), #117, .F. ) ;
#115 = CARTESIAN_POINT ( 'NONE',  ( -0.4999999984578941700, 0.0000000000000000000, 39.05000000053100000 ) ) ;
#116 = CARTESIAN_POINT ( 'NONE',  ( -1.250000001542108200, 0.0000000000000000000, 0.0000000000000000000 ) ) ;
#117 = CYLINDRICAL_SURFACE ( 'NONE', #13, 34.85000000000000100 ) ;
#118 = ORIENTED_EDGE ( 'NONE', *, *, #79, .F. ) ;
#119 = DIRECTION ( 'NONE',  ( 1.000000000000000000, 0.0000000000000000000, 0.0000000000000000000 ) ) ;
#120 = DIRECTION ( 'NONE',  ( 0.0000000000000000000, 0.0000000000000000000, -1.000000000000000000 ) ) ;
#121 = AXIS2_PLACEMENT_3D ( 'NONE', #183, #42, #252 ) ;
#122 =( GEOMETRIC_REPRESENTATION_CONTEXT ( 3 ) GLOBAL_UNCERTAINTY_ASSIGNED_CONTEXT ( ( #20 ) ) GLOBAL_UNIT_ASSIGNED_CONTEXT ( ( #23, #111, #280 ) ) REPRESENTATION_CONTEXT ( 'NONE', 'WORKASPACE' ) );
#123 = ORIENTED_EDGE ( 'NONE', *, *, #172, .F. ) ;
#124 = CIRCLE ( 'NONE', #211, 41.22815815772588600 ) ;
#125 = ORIENTED_EDGE ( 'NONE', *, *, #52, .F. ) ;
#126 = CIRCLE ( 'NONE', #273, 39.05000000053100000 ) ;
#127 = ORIENTED_EDGE ( 'NONE', *, *, #53, .F. ) ;
#128 = ORIENTED_EDGE ( 'NONE', *, *, #99, .F. ) ;
#129 = CARTESIAN_POINT ( 'NONE',  ( -0.5000000000000000000, 38.75000000000000700, 0.0000000000000000000 ) ) ;
#130 = DIRECTION ( 'NONE',  ( 0.0000000000000000000, 0.0000000000000000000, 1.000000000000000000 ) ) ;
#131 = AXIS2_PLACEMENT_3D ( 'NONE', #129, #70, #192 ) ;
#132 = ORIENTED_EDGE ( 'NONE', *, *, #79, .T. ) ;
#133 = CARTESIAN_POINT ( 'NONE',  ( 0.4999999998100177500, 0.0000000000000000000, -5.197244203940157300E-033 ) ) ;
#134 = CARTESIAN_POINT ( 'NONE',  ( 1.249999999999998000, 0.0000000000000000000, 0.0000000000000000000 ) ) ;
#135 = FACE_OUTER_BOUND ( 'NONE', #142, .T. ) ;
#136 = DIRECTION ( 'NONE',  ( 0.0000000000000000000, 0.0000000000000000000, -1.000000000000000000 ) ) ;
#137 = ORIENTED_EDGE ( 'NONE', *, *, #165, .T. ) ;
#138 = DIRECTION ( 'NONE',  ( -1.000000000000000000, -0.0000000000000000000, -0.0000000000000000000 ) ) ;
#139 = ADVANCED_FACE ( 'NONE', ( #35, #245 ), #289, .T. ) ;
#140 = AXIS2_PLACEMENT_3D ( 'NONE', #216, #196, #283 ) ;
#141 = FACE_OUTER_BOUND ( 'NONE', #15, .T. ) ;
#142 = EDGE_LOOP ( 'NONE', ( #137 ) ) ;
#143 = AXIS2_PLACEMENT_3D ( 'NONE', #134, #32, #120 ) ;
#144 = ORIENTED_EDGE ( 'NONE', *, *, #53, .T. ) ;
#145 = MECHANICAL_DESIGN_GEOMETRIC_PRESENTATION_REPRESENTATION (  '', ( #146 ), #94 ) ;
#146 = STYLED_ITEM ( 'NONE', ( #67 ), #272 ) ;
#147 = VERTEX_POINT ( 'NONE', #235 ) ;
#148 = EDGE_LOOP ( 'NONE', ( #50 ) ) ;
#149 = AXIS2_PLACEMENT_3D ( 'NONE', #218, #260, #162 ) ;
#150 = CIRCLE ( 'NONE', #3, 41.22815815772588600 ) ;
#151 = ADVANCED_FACE ( 'NONE', ( #72, #226 ), #274, .T. ) ;
#152 = DIRECTION ( 'NONE',  ( -1.000000000000000000, -0.0000000000000000000, 0.0000000000000000000 ) ) ;
#153 = PRODUCT_CONTEXT ( 'NONE', #156, 'mechanical' ) ;
#154 = DIRECTION ( 'NONE',  ( 0.0000000000000000000, 0.0000000000000000000, 1.000000000000000000 ) ) ;
#155 = SHAPE_DEFINITION_REPRESENTATION ( #37, #96 ) ;
#156 = APPLICATION_CONTEXT ( 'automotive_design' ) ;
#157 = CARTESIAN_POINT ( 'NONE',  ( 0.0000000000000000000, 0.0000000000000000000, 0.0000000000000000000 ) ) ;
#158 = ORIENTED_EDGE ( 'NONE', *, *, #246, .F. ) ;
#159 = SURFACE_SIDE_STYLE ('',( #201 ) ) ;
#160 = CARTESIAN_POINT ( 'NONE',  ( 1.250000001542108200, 0.0000000000000000000, 0.0000000000000000000 ) ) ;
#161 = CARTESIAN_POINT ( 'NONE',  ( -1.600000000000000100, 36.33245735194570600, 0.0000000000000000000 ) ) ;
#162 = DIRECTION ( 'NONE',  ( 0.0000000000000000000, 0.0000000000000000000, -1.000000000000000000 ) ) ;
#163 = COLOUR_RGB ( '',0.3215686274509803600, 0.3215686274509803600, 0.3215686274509803600 ) ;
#164 = DIRECTION ( 'NONE',  ( 0.0000000000000000000, 0.0000000000000000000, -1.000000000000000000 ) ) ;
#165 = EDGE_CURVE ( 'NONE', #51, #51, #54, .T. ) ;
#166 = VERTEX_POINT ( 'NONE', #85 ) ;
#167 = EDGE_LOOP ( 'NONE', ( #26 ) ) ;
#168 = FACE_OUTER_BOUND ( 'NONE', #198, .T. ) ;
#169 = EDGE_CURVE ( 'NONE', #166, #166, #184, .T. ) ;
#170 = CIRCLE ( 'NONE', #121, 38.44999999967094300 ) ;
#171 = VERTEX_POINT ( 'NONE', #251 ) ;
#172 = EDGE_CURVE ( 'NONE', #43, #43, #292, .T. ) ;
#173 = EDGE_LOOP ( 'NONE', ( #9 ) ) ;
#174 = AXIS2_PLACEMENT_3D ( 'NONE', #10, #138, #261 ) ;
#175 = FACE_OUTER_BOUND ( 'NONE', #1, .T. ) ;
#176 = DIRECTION ( 'NONE',  ( 1.000000000000000000, 0.0000000000000000000, -0.0000000000000000000 ) ) ;
#177 = ORIENTED_EDGE ( 'NONE', *, *, #270, .F. ) ;
#178 = DIRECTION ( 'NONE',  ( 1.000000000000000000, -0.0000000000000000000, 0.0000000000000000000 ) ) ;
#179 = SURFACE_STYLE_USAGE ( .BOTH. , #159 ) ;
#180 = CARTESIAN_POINT ( 'NONE',  ( 0.4999999984578941700, 0.0000000000000000000, 0.0000000000000000000 ) ) ;
#181 = AXIS2_PLACEMENT_3D ( 'NONE', #84, #188, #281 ) ;
#182 = CARTESIAN_POINT ( 'NONE',  ( 1.250000001542108200, 0.0000000000000000000, -41.22815815772588600 ) ) ;
#183 = CARTESIAN_POINT ( 'NONE',  ( -0.4999999998100174100, 0.0000000000000000000, 5.655824574876053400E-033 ) ) ;
#184 = CIRCLE ( 'NONE', #149, 37.81491470422045600 ) ;
#185 = FILL_AREA_STYLE_COLOUR ( '', #163 ) ;
#186 = ORIENTED_EDGE ( 'NONE', *, *, #27, .F. ) ;
#187 = CARTESIAN_POINT ( 'NONE',  ( -1.250000001542108200, 0.0000000000000000000, 41.22815815772588600 ) ) ;
#188 = DIRECTION ( 'NONE',  ( 1.000000000000000000, -0.0000000000000000000, -1.409885789980211900E-018 ) ) ;
#189 = CARTESIAN_POINT ( 'NONE',  ( 1.600000000000000100, 36.33245735194570600, 0.0000000000000000000 ) ) ;
#190 = DIRECTION ( 'NONE',  ( -1.000000000000000000, -0.0000000000000000000, -0.0000000000000000000 ) ) ;
#191 = FACE_BOUND ( 'NONE', #113, .T. ) ;
#192 = DIRECTION ( 'NONE',  ( 0.0000000000000000000, 0.0000000000000000000, 1.000000000000000000 ) ) ;
#193 = ADVANCED_FACE ( 'NONE', ( #191, #175 ), #11, .T. ) ;
#194 = ORIENTED_EDGE ( 'NONE', *, *, #230, .F. ) ;
#195 = AXIS2_PLACEMENT_3D ( 'NONE', #56, #112, #154 ) ;
#196 = DIRECTION ( 'NONE',  ( 1.000000000000000000, 0.0000000000000000000, -1.409885789980211900E-018 ) ) ;
#197 = FACE_BOUND ( 'NONE', #73, .T. ) ;
#198 = EDGE_LOOP ( 'NONE', ( #123 ) ) ;
#199 = ORIENTED_EDGE ( 'NONE', *, *, #169, .T. ) ;
#200 = MECHANICAL_DESIGN_GEOMETRIC_PRESENTATION_REPRESENTATION (  '', ( #263 ), #122 ) ;
#201 = SURFACE_STYLE_FILL_AREA ( #25 ) ;
#202 = PRESENTATION_STYLE_ASSIGNMENT (( #86 ) ) ;
#203 = EDGE_LOOP ( 'NONE', ( #106 ) ) ;
#204 = DIRECTION ( 'NONE',  ( 0.0000000000000000000, 0.0000000000000000000, -1.000000000000000000 ) ) ;
#205 = ADVANCED_FACE ( 'NONE', ( #141, #268 ), #18, .F. ) ;
#206 = FACE_OUTER_BOUND ( 'NONE', #254, .T. ) ;
#207 = DIRECTION ( 'NONE',  ( -1.000000000000000000, -0.0000000000000000000, -0.0000000000000000000 ) ) ;
#208 = DIRECTION ( 'NONE',  ( 0.0000000000000000000, 0.0000000000000000000, -1.000000000000000000 ) ) ;
#209 = PLANE ( 'NONE',  #195 ) ;
#210 = CARTESIAN_POINT ( 'NONE',  ( 1.600000000000000100, 0.0000000000000000000, -34.85000000000000100 ) ) ;
#211 = AXIS2_PLACEMENT_3D ( 'NONE', #49, #119, #91 ) ;
#212 = UNCERTAINTY_MEASURE_WITH_UNIT (LENGTH_MEASURE( 1.000000000000000100E-005 ), #45, 'distance_accuracy_value', 'NONE');
#213 = CARTESIAN_POINT ( 'NONE',  ( 0.6250000000000000000, 0.0000000000000000000, 0.0000000000000000000 ) ) ;
#214 = AXIS2_PLACEMENT_3D ( 'NONE', #161, #236, #215 ) ;
#215 = DIRECTION ( 'NONE',  ( 0.0000000000000000000, 0.0000000000000000000, 1.000000000000000000 ) ) ;
#216 = CARTESIAN_POINT ( 'NONE',  ( -0.4999999998100134200, 0.0000000000000000000, 0.0000000000000000000 ) ) ;
#217 = FACE_OUTER_BOUND ( 'NONE', #173, .T. ) ;
#218 = CARTESIAN_POINT ( 'NONE',  ( -1.600000000189993700, 0.0000000000000000000, 1.550874369513961700E-018 ) ) ;
#219 = EDGE_LOOP ( 'NONE', ( #69 ) ) ;
#220 = FACE_OUTER_BOUND ( 'NONE', #103, .T. ) ;
#221 = AXIS2_PLACEMENT_3D ( 'NONE', #264, #93, #31 ) ;
#222 = PRODUCT_RELATED_PRODUCT_CATEGORY ( 'part', '', ( #102 ) ) ;
#223 = VERTEX_POINT ( 'NONE', #210 ) ;
#224 = ORIENTED_EDGE ( 'NONE', *, *, #52, .T. ) ;
#225 = PLANE ( 'NONE',  #131 ) ;
#226 = FACE_OUTER_BOUND ( 'NONE', #203, .T. ) ;
#227 = EDGE_LOOP ( 'NONE', ( #132 ) ) ;
#228 = DIRECTION ( 'NONE',  ( 1.000000000000000000, 0.0000000000000000000, 0.0000000000000000000 ) ) ;
#229 = PLANE ( 'NONE',  #39 ) ;
#230 = EDGE_CURVE ( 'NONE', #223, #223, #248, .T. ) ;
#231 = CARTESIAN_POINT ( 'NONE',  ( 0.4999999998100177500, 0.0000000000000000000, 38.44999999967094300 ) ) ;
#232 = SURFACE_STYLE_FILL_AREA ( #255 ) ;
#233 = CARTESIAN_POINT ( 'NONE',  ( 0.4999999984578941700, 0.0000000000000000000, -39.05000000053100000 ) ) ;
#234 = ORIENTED_EDGE ( 'NONE', *, *, #172, .T. ) ;
#235 = CARTESIAN_POINT ( 'NONE',  ( 1.249999999999998000, 0.0000000000000000000, -41.35000000000000900 ) ) ;
#236 = DIRECTION ( 'NONE',  ( -1.000000000000000000, 0.0000000000000000000, 0.0000000000000000000 ) ) ;
#237 =( LENGTH_UNIT ( ) NAMED_UNIT ( * ) SI_UNIT ( .MILLI., .METRE. ) );
#238 = FACE_OUTER_BOUND ( 'NONE', #78, .T. ) ;
#239 = DIRECTION ( 'NONE',  ( -1.000000000000000000, -0.0000000000000000000, -0.0000000000000000000 ) ) ;
#240 = ORIENTED_EDGE ( 'NONE', *, *, #165, .F. ) ;
#241 = AXIS2_PLACEMENT_3D ( 'NONE', #160, #285, #14 ) ;
#242 = EDGE_LOOP ( 'NONE', ( #144 ) ) ;
#243 = FACE_BOUND ( 'NONE', #269, .T. ) ;
#244 = ORIENTED_EDGE ( 'NONE', *, *, #99, .T. ) ;
#245 = FACE_OUTER_BOUND ( 'NONE', #247, .T. ) ;
#246 = EDGE_CURVE ( 'NONE', #294, #294, #150, .T. ) ;
#247 = EDGE_LOOP ( 'NONE', ( #244 ) ) ;
#248 = CIRCLE ( 'NONE', #105, 34.85000000000000100 ) ;
#249 = AXIS2_PLACEMENT_3D ( 'NONE', #4, #109, #44 ) ;
#250 = CARTESIAN_POINT ( 'NONE',  ( 0.5000000000000000000, 38.75000000000000700, 0.0000000000000000000 ) ) ;
#251 = CARTESIAN_POINT ( 'NONE',  ( 1.600000000189991400, 0.0000000000000000000, 37.81491470422046300 ) ) ;
#252 = DIRECTION ( 'NONE',  ( 0.0000000000000000000, 0.0000000000000000000, -1.000000000000000000 ) ) ;
#253 = DIRECTION ( 'NONE',  ( 0.0000000000000000000, 0.0000000000000000000, -1.000000000000000000 ) ) ;
#254 = EDGE_LOOP ( 'NONE', ( #224 ) ) ;
#255 = FILL_AREA_STYLE ('',( #256 ) ) ;
#256 = FILL_AREA_STYLE_COLOUR ( '', #34 ) ;
#257 = ADVANCED_FACE ( 'NONE', ( #60, #24 ), #80, .T. ) ;
#258 = CIRCLE ( 'NONE', #33, 38.44999999967094300 ) ;
#259 = CARTESIAN_POINT ( 'NONE',  ( -0.4999999998100174100, 0.0000000000000000000, -38.44999999967094300 ) ) ;
#260 = DIRECTION ( 'NONE',  ( -1.000000000000000000, -0.0000000000000000000, 1.409885789980211900E-018 ) ) ;
#261 = DIRECTION ( 'NONE',  ( 0.0000000000000000000, 0.0000000000000000000, -1.000000000000000000 ) ) ;
#262 = ADVANCED_FACE ( 'NONE', ( #217, #265 ), #16, .T. ) ;
#263 = STYLED_ITEM ( 'NONE', ( #202 ), #96 ) ;
#264 = CARTESIAN_POINT ( 'NONE',  ( -1.600000000000000100, 0.0000000000000000000, 0.0000000000000000000 ) ) ;
#265 = FACE_BOUND ( 'NONE', #271, .T. ) ;
#266 = PRESENTATION_LAYER_ASSIGNMENT (  '', '', ( #146 ) ) ;
#267 = ORIENTED_EDGE ( 'NONE', *, *, #230, .T. ) ;
#268 = FACE_BOUND ( 'NONE', #148, .T. ) ;
#269 = EDGE_LOOP ( 'NONE', ( #177 ) ) ;
#270 = EDGE_CURVE ( 'NONE', #101, #101, #258, .T. ) ;
#271 = EDGE_LOOP ( 'NONE', ( #127 ) ) ;
#272 = MANIFOLD_SOLID_BREP ( 'Volumenk\S\vrper1', #21 ) ;
#273 = AXIS2_PLACEMENT_3D ( 'NONE', #2, #207, #276 ) ;
#274 = CONICAL_SURFACE ( 'NONE', #140, 38.44999999967094300, 0.5235987750000108400 ) ;
#275 = CARTESIAN_POINT ( 'NONE',  ( 0.0000000000000000000, 0.0000000000000000000, 0.0000000000000000000 ) ) ;
#276 = DIRECTION ( 'NONE',  ( 0.0000000000000000000, 0.0000000000000000000, 1.000000000000000000 ) ) ;
#277 = DIRECTION ( 'NONE',  ( 1.000000000000000000, 0.0000000000000000000, 0.0000000000000000000 ) ) ;
#278 = DIRECTION ( 'NONE',  ( 1.000000000000000000, -0.0000000000000000000, 0.0000000000000000000 ) ) ;
#279 = DIRECTION ( 'NONE',  ( 0.0000000000000000000, 0.0000000000000000000, 1.000000000000000000 ) ) ;
#280 =( NAMED_UNIT ( * ) SI_UNIT ( $, .STERADIAN. ) SOLID_ANGLE_UNIT ( ) );
#281 = DIRECTION ( 'NONE',  ( 0.0000000000000000000, 0.0000000000000000000, 1.000000000000000000 ) ) ;
#282 = EDGE_LOOP ( 'NONE', ( #118 ) ) ;
#283 = DIRECTION ( 'NONE',  ( 0.0000000000000000000, 0.0000000000000000000, -1.000000000000000000 ) ) ;
#284 = ADVANCED_FACE ( 'NONE', ( #290, #82 ), #29, .T. ) ;
#285 = DIRECTION ( 'NONE',  ( 1.000000000000000000, 0.0000000000000000000, -0.0000000000000000000 ) ) ;
#286 = DIRECTION ( 'NONE',  ( 1.000000000000000000, -0.0000000000000000000, 0.0000000000000000000 ) ) ;
#287 = PRODUCT_DEFINITION_CONTEXT ( 'detailed design', #41, 'design' ) ;
#288 = AXIS2_PLACEMENT_3D ( 'NONE', #180, #176, #8 ) ;
#289 = PLANE ( 'NONE',  #61 ) ;
#290 = FACE_BOUND ( 'NONE', #293, .T. ) ;
#291 = AXIS2_PLACEMENT_3D ( 'NONE', #116, #239, #71 ) ;
#292 = CIRCLE ( 'NONE', #221, 34.85000000000000100 ) ;
#293 = EDGE_LOOP ( 'NONE', ( #267 ) ) ;
#294 = VERTEX_POINT ( 'NONE', #182 ) ;
ENDSEC;
END-ISO-10303-21;
